ISO-10303-21;
HEADER;
FILE_DESCRIPTION (( 'STEP AP203' ),
    '1' );
FILE_NAME ('BK7-RNDF-25.4-0.2.STEP',
    '2020-12-22T01:27:51',
    ( '' ),
    ( '' ),
    'SwSTEP 2.0',
    'SolidWorks 2020',
    '' );
FILE_SCHEMA (( 'CONFIG_CONTROL_DESIGN' ));
ENDSEC;

DATA;
#1 = PERSON_AND_ORGANIZATION_ROLE ( 'creator' ) ;
#2 = PRODUCT_DEFINITION ( 'UNKNOWN', '', #30, #141 ) ;
#3 = LOCAL_TIME ( 9, 27, 51.00000000000000000, #159 ) ;
#4 =( GEOMETRIC_REPRESENTATION_CONTEXT ( 3 ) GLOBAL_UNCERTAINTY_ASSIGNED_CONTEXT ( ( #103 ) ) GLOBAL_UNIT_ASSIGNED_CONTEXT ( ( #95, #127, #164 ) ) REPRESENTATION_CONTEXT ( 'NONE', 'WORKASPACE' ) );
#5 = DIRECTION ( 'NONE',  ( -1.000000000000000000, -0.000000000000000000, -0.000000000000000000 ) ) ;
#6 = EDGE_CURVE ( 'NONE', #158, #172, #102, .T. ) ;
#7 = DIRECTION ( 'NONE',  ( -1.000000000000000000, -0.000000000000000000, -0.000000000000000000 ) ) ;
#8 = APPLICATION_CONTEXT ( 'configuration controlled 3d designs of mechanical parts and assemblies' ) ;
#9 = DIRECTION ( 'NONE',  ( 0.000000000000000000, 0.000000000000000000, 1.000000000000000000 ) ) ;
#10 = ORIENTED_EDGE ( 'NONE', *, *, #68, .F. ) ;
#11 = APPROVAL_DATE_TIME ( #126, #99 ) ;
#12 = DIRECTION ( 'NONE',  ( 0.000000000000000000, 0.000000000000000000, 1.000000000000000000 ) ) ;
#13 = AXIS2_PLACEMENT_3D ( 'NONE', #122, #156, #113 ) ;
#14 = DIRECTION ( 'NONE',  ( 0.000000000000000000, 0.000000000000000000, 1.000000000000000000 ) ) ;
#15 = COORDINATED_UNIVERSAL_TIME_OFFSET ( 8, 0, .AHEAD. ) ;
#16 = AXIS2_PLACEMENT_3D ( 'NONE', #131, #5, #91 ) ;
#17 = CC_DESIGN_APPROVAL ( #99, ( #30 ) ) ;
#18 = CALENDAR_DATE ( 2020, 22, 12 ) ;
#19 = CARTESIAN_POINT ( 'NONE',  ( 1.999999999999999112, 12.69999999999999929, 0.000000000000000000 ) ) ;
#20 = AXIS2_PLACEMENT_3D ( 'NONE', #136, #14, #150 ) ;
#21 = CARTESIAN_POINT ( 'NONE',  ( -1.187907395172932594E-15, 1.555301434917138433E-15, -12.69999999999999929 ) ) ;
#22 = DIRECTION ( 'NONE',  ( 0.000000000000000000, 0.000000000000000000, 1.000000000000000000 ) ) ;
#23 = FACE_OUTER_BOUND ( 'NONE', #43, .T. ) ;
#24 = CIRCLE ( 'NONE', #87, 12.69999999999999929 ) ;
#25 = ORIENTED_EDGE ( 'NONE', *, *, #85, .T. ) ;
#26 = ADVANCED_BREP_SHAPE_REPRESENTATION ( 'BK7-RNDF-25.4-0.2', ( #56, #20 ), #4 ) ;
#27 = APPROVAL_STATUS ( 'not_yet_approved' ) ;
#28 = APPLICATION_PROTOCOL_DEFINITION ( 'international standard', 'config_control_design', 1994, #8 ) ;
#29 = ADVANCED_FACE ( 'NONE', ( #23 ), #114, .T. ) ;
#30 = PRODUCT_DEFINITION_FORMATION_WITH_SPECIFIED_SOURCE ( 'ANY', '', #79, .NOT_KNOWN. ) ;
#31 = DIRECTION ( 'NONE',  ( -1.000000000000000000, -0.000000000000000000, -0.000000000000000000 ) ) ;
#32 = PERSON_AND_ORGANIZATION ( #64, #162 ) ;
#33 = CLOSED_SHELL ( 'NONE', ( #29, #118, #52, #92 ) ) ;
#34 = DATE_TIME_ROLE ( 'classification_date' ) ;
#35 = CC_DESIGN_DATE_AND_TIME_ASSIGNMENT ( #117, #107, ( #2 ) ) ;
#36 = LOCAL_TIME ( 9, 27, 51.00000000000000000, #48 ) ;
#37 = PRODUCT_DEFINITION_SHAPE ( 'NONE', 'NONE',  #2 ) ;
#38 = DIRECTION ( 'NONE',  ( -1.000000000000000000, 0.000000000000000000, -0.000000000000000000 ) ) ;
#39 = VERTEX_POINT ( 'NONE', #21 ) ;
#40 = CC_DESIGN_APPROVAL ( #155, ( #2 ) ) ;
#41 = CARTESIAN_POINT ( 'NONE',  ( 1.999999999999998224, 0.000000000000000000, 0.000000000000000000 ) ) ;
#42 = CARTESIAN_POINT ( 'NONE',  ( 0.000000000000000000, 0.000000000000000000, 0.000000000000000000 ) ) ;
#43 = EDGE_LOOP ( 'NONE', ( #72, #25, #10, #169 ) ) ;
#44 = EDGE_CURVE ( 'NONE', #158, #144, #148, .T. ) ;
#45 = APPROVAL_STATUS ( 'not_yet_approved' ) ;
#46 = PERSON_AND_ORGANIZATION_ROLE ( 'classification_officer' ) ;
#47 = PERSON_AND_ORGANIZATION ( #64, #162 ) ;
#48 = COORDINATED_UNIVERSAL_TIME_OFFSET ( 8, 0, .AHEAD. ) ;
#49 = SECURITY_CLASSIFICATION ( '', '', #116 ) ;
#50 = CC_DESIGN_SECURITY_CLASSIFICATION ( #49, ( #30 ) ) ;
#51 = CARTESIAN_POINT ( 'NONE',  ( 1.999999999999998224, 0.000000000000000000, 12.69999999999999929 ) ) ;
#52 = ADVANCED_FACE ( 'NONE', ( #106 ), #112, .F. ) ;
#53 = SHAPE_DEFINITION_REPRESENTATION ( #37, #26 ) ;
#54 = PRODUCT_RELATED_PRODUCT_CATEGORY ( 'detail', '', ( #79 ) ) ;
#55 = APPROVAL_ROLE ( '' ) ;
#56 = MANIFOLD_SOLID_BREP ( 'Ðý×', #33 ) ;
#57 = EDGE_LOOP ( 'NONE', ( #134, #145 ) ) ;
#58 = CARTESIAN_POINT ( 'NONE',  ( 1.999999999999998224, 0.000000000000000000, 0.000000000000000000 ) ) ;
#59 = DIRECTION ( 'NONE',  ( -1.000000000000000000, -0.000000000000000000, -0.000000000000000000 ) ) ;
#60 = EDGE_LOOP ( 'NONE', ( #168, #76 ) ) ;
#61 = CC_DESIGN_APPROVAL ( #71, ( #49 ) ) ;
#62 = PERSON_AND_ORGANIZATION_ROLE ( 'design_supplier' ) ;
#63 = APPROVAL_ROLE ( '' ) ;
#64 = PERSON ( 'UNSPECIFIED', 'UNSPECIFIED', 'UNSPECIFIED', ('UNSPECIFIED'), ('UNSPECIFIED'), ('UNSPECIFIED') ) ;
#65 = DIRECTION ( 'NONE',  ( -1.000000000000000000, -0.000000000000000000, -0.000000000000000000 ) ) ;
#66 = CARTESIAN_POINT ( 'NONE',  ( -1.187907395172932594E-15, 0.000000000000000000, 12.69999999999999929 ) ) ;
#67 = AXIS2_PLACEMENT_3D ( 'NONE', #58, #7, #9 ) ;
#68 = EDGE_CURVE ( 'NONE', #172, #39, #166, .T. ) ;
#69 = PERSON_AND_ORGANIZATION ( #64, #162 ) ;
#70 = APPROVAL_DATE_TIME ( #138, #71 ) ;
#71 = APPROVAL ( #139, 'UNSPECIFIED' ) ;
#72 = ORIENTED_EDGE ( 'NONE', *, *, #44, .T. ) ;
#73 = LINE ( 'NONE', #143, #75 ) ;
#74 = CARTESIAN_POINT ( 'NONE',  ( 0.000000000000000000, 0.000000000000000000, 0.000000000000000000 ) ) ;
#75 = VECTOR ( 'NONE', #101, 1000.000000000000000 ) ;
#76 = ORIENTED_EDGE ( 'NONE', *, *, #115, .F. ) ;
#77 = ORIENTED_EDGE ( 'NONE', *, *, #6, .T. ) ;
#78 = PERSON_AND_ORGANIZATION_ROLE ( 'creator' ) ;
#79 = PRODUCT ( 'BK7-RNDF-25.4-0.2', 'BK7-RNDF-25.4-0.2', '', ( #151 ) ) ;
#80 = AXIS2_PLACEMENT_3D ( 'NONE', #19, #38, #142 ) ;
#81 = CALENDAR_DATE ( 2020, 22, 12 ) ;
#82 = PERSON_AND_ORGANIZATION ( #64, #162 ) ;
#83 = PERSON_AND_ORGANIZATION ( #64, #162 ) ;
#84 = APPROVAL_PERSON_ORGANIZATION ( #137, #155, #63 ) ;
#85 = EDGE_CURVE ( 'NONE', #144, #39, #73, .T. ) ;
#86 = PLANE ( 'NONE',  #13 ) ;
#87 = AXIS2_PLACEMENT_3D ( 'NONE', #41, #105, #22 ) ;
#88 = EDGE_LOOP ( 'NONE', ( #130, #124, #77, #90 ) ) ;
#89 = FACE_OUTER_BOUND ( 'NONE', #88, .T. ) ;
#90 = ORIENTED_EDGE ( 'NONE', *, *, #153, .F. ) ;
#91 = DIRECTION ( 'NONE',  ( 0.000000000000000000, 0.000000000000000000, 1.000000000000000000 ) ) ;
#92 = ADVANCED_FACE ( 'NONE', ( #140 ), #86, .F. ) ;
#93 = CALENDAR_DATE ( 2020, 22, 12 ) ;
#94 = DATE_AND_TIME ( #81, #133 ) ;
#95 =( LENGTH_UNIT ( ) NAMED_UNIT ( * ) SI_UNIT ( .MILLI., .METRE. ) );
#96 = CC_DESIGN_PERSON_AND_ORGANIZATION_ASSIGNMENT ( #82, #46, ( #49 ) ) ;
#97 = APPLICATION_PROTOCOL_DEFINITION ( 'international standard', 'config_control_design', 1994, #121 ) ;
#98 = AXIS2_PLACEMENT_3D ( 'NONE', #42, #65, #175 ) ;
#99 = APPROVAL ( #27, 'UNSPECIFIED' ) ;
#100 = DATE_AND_TIME ( #18, #36 ) ;
#101 = DIRECTION ( 'NONE',  ( -1.000000000000000000, -0.000000000000000000, -0.000000000000000000 ) ) ;
#102 = LINE ( 'NONE', #125, #129 ) ;
#103 = UNCERTAINTY_MEASURE_WITH_UNIT (LENGTH_MEASURE( 1.000000000000000082E-05 ), #95, 'distance_accuracy_value', 'NONE');
#104 = CC_DESIGN_PERSON_AND_ORGANIZATION_ASSIGNMENT ( #173, #62, ( #30 ) ) ;
#105 = DIRECTION ( 'NONE',  ( -1.000000000000000000, -0.000000000000000000, -0.000000000000000000 ) ) ;
#106 = FACE_OUTER_BOUND ( 'NONE', #60, .T. ) ;
#107 = DATE_TIME_ROLE ( 'creation_date' ) ;
#108 = CC_DESIGN_PERSON_AND_ORGANIZATION_ASSIGNMENT ( #47, #78, ( #30 ) ) ;
#109 = CARTESIAN_POINT ( 'NONE',  ( 1.999999999999998224, 1.555301434917138433E-15, -12.69999999999999929 ) ) ;
#110 = CIRCLE ( 'NONE', #123, 12.69999999999999929 ) ;
#111 = DIRECTION ( 'NONE',  ( 0.000000000000000000, 0.000000000000000000, 1.000000000000000000 ) ) ;
#112 = PLANE ( 'NONE',  #80 ) ;
#113 = DIRECTION ( 'NONE',  ( 0.000000000000000000, 0.000000000000000000, -1.000000000000000000 ) ) ;
#114 = CYLINDRICAL_SURFACE ( 'NONE', #120, 12.69999999999999929 ) ;
#115 = EDGE_CURVE ( 'NONE', #144, #158, #24, .T. ) ;
#116 = SECURITY_CLASSIFICATION_LEVEL ( 'unclassified' ) ;
#117 = DATE_AND_TIME ( #93, #3 ) ;
#118 = ADVANCED_FACE ( 'NONE', ( #89 ), #157, .T. ) ;
#119 = CARTESIAN_POINT ( 'NONE',  ( -1.187907395172932594E-15, 0.000000000000000000, 0.000000000000000000 ) ) ;
#120 = AXIS2_PLACEMENT_3D ( 'NONE', #74, #132, #111 ) ;
#121 = APPLICATION_CONTEXT ( 'configuration controlled 3d designs of mechanical parts and assemblies' ) ;
#122 = CARTESIAN_POINT ( 'NONE',  ( -5.939536975864662969E-16, 12.69999999999999929, 0.000000000000000000 ) ) ;
#123 = AXIS2_PLACEMENT_3D ( 'NONE', #119, #31, #12 ) ;
#124 = ORIENTED_EDGE ( 'NONE', *, *, #115, .T. ) ;
#125 = CARTESIAN_POINT ( 'NONE',  ( 0.000000000000000000, 0.000000000000000000, 12.69999999999999929 ) ) ;
#126 = DATE_AND_TIME ( #160, #171 ) ;
#127 =( NAMED_UNIT ( * ) PLANE_ANGLE_UNIT ( ) SI_UNIT ( $, .RADIAN. ) );
#128 = APPROVAL_PERSON_ORGANIZATION ( #146, #99, #135 ) ;
#129 = VECTOR ( 'NONE', #59, 1000.000000000000000 ) ;
#130 = ORIENTED_EDGE ( 'NONE', *, *, #85, .F. ) ;
#131 = CARTESIAN_POINT ( 'NONE',  ( -1.187907395172932594E-15, 0.000000000000000000, 0.000000000000000000 ) ) ;
#132 = DIRECTION ( 'NONE',  ( -1.000000000000000000, -0.000000000000000000, -0.000000000000000000 ) ) ;
#133 = LOCAL_TIME ( 9, 27, 51.00000000000000000, #15 ) ;
#134 = ORIENTED_EDGE ( 'NONE', *, *, #68, .T. ) ;
#135 = APPROVAL_ROLE ( '' ) ;
#136 = CARTESIAN_POINT ( 'NONE',  ( 0.000000000000000000, 0.000000000000000000, 0.000000000000000000 ) ) ;
#137 = PERSON_AND_ORGANIZATION ( #64, #162 ) ;
#138 = DATE_AND_TIME ( #152, #154 ) ;
#139 = APPROVAL_STATUS ( 'not_yet_approved' ) ;
#140 = FACE_OUTER_BOUND ( 'NONE', #57, .T. ) ;
#141 = DESIGN_CONTEXT ( 'detailed design', #8, 'design' ) ;
#142 = DIRECTION ( 'NONE',  ( -0.000000000000000000, 0.000000000000000000, 1.000000000000000000 ) ) ;
#143 = CARTESIAN_POINT ( 'NONE',  ( 0.000000000000000000, 1.555301434917138433E-15, -12.69999999999999929 ) ) ;
#144 = VERTEX_POINT ( 'NONE', #109 ) ;
#145 = ORIENTED_EDGE ( 'NONE', *, *, #153, .T. ) ;
#146 = PERSON_AND_ORGANIZATION ( #64, #162 ) ;
#147 = APPROVAL_DATE_TIME ( #94, #155 ) ;
#148 = CIRCLE ( 'NONE', #67, 12.69999999999999929 ) ;
#149 = APPROVAL_PERSON_ORGANIZATION ( #69, #71, #55 ) ;
#150 = DIRECTION ( 'NONE',  ( 1.000000000000000000, 0.000000000000000000, 0.000000000000000000 ) ) ;
#151 = MECHANICAL_CONTEXT ( 'NONE', #121, 'mechanical' ) ;
#152 = CALENDAR_DATE ( 2020, 22, 12 ) ;
#153 = EDGE_CURVE ( 'NONE', #39, #172, #110, .T. ) ;
#154 = LOCAL_TIME ( 9, 27, 51.00000000000000000, #167 ) ;
#155 = APPROVAL ( #45, 'UNSPECIFIED' ) ;
#156 = DIRECTION ( 'NONE',  ( 1.000000000000000000, 0.000000000000000000, 0.000000000000000000 ) ) ;
#157 = CYLINDRICAL_SURFACE ( 'NONE', #98, 12.69999999999999929 ) ;
#158 = VERTEX_POINT ( 'NONE', #51 ) ;
#159 = COORDINATED_UNIVERSAL_TIME_OFFSET ( 8, 0, .AHEAD. ) ;
#160 = CALENDAR_DATE ( 2020, 22, 12 ) ;
#161 = COORDINATED_UNIVERSAL_TIME_OFFSET ( 8, 0, .AHEAD. ) ;
#162 = ORGANIZATION ( 'UNSPECIFIED', 'UNSPECIFIED', '' ) ;
#163 = CC_DESIGN_DATE_AND_TIME_ASSIGNMENT ( #100, #34, ( #49 ) ) ;
#164 =( NAMED_UNIT ( * ) SI_UNIT ( $, .STERADIAN. ) SOLID_ANGLE_UNIT ( ) );
#165 = CC_DESIGN_PERSON_AND_ORGANIZATION_ASSIGNMENT ( #32, #174, ( #79 ) ) ;
#166 = CIRCLE ( 'NONE', #16, 12.69999999999999929 ) ;
#167 = COORDINATED_UNIVERSAL_TIME_OFFSET ( 8, 0, .AHEAD. ) ;
#168 = ORIENTED_EDGE ( 'NONE', *, *, #44, .F. ) ;
#169 = ORIENTED_EDGE ( 'NONE', *, *, #6, .F. ) ;
#170 = CC_DESIGN_PERSON_AND_ORGANIZATION_ASSIGNMENT ( #83, #1, ( #2 ) ) ;
#171 = LOCAL_TIME ( 9, 27, 51.00000000000000000, #161 ) ;
#172 = VERTEX_POINT ( 'NONE', #66 ) ;
#173 = PERSON_AND_ORGANIZATION ( #64, #162 ) ;
#174 = PERSON_AND_ORGANIZATION_ROLE ( 'design_owner' ) ;
#175 = DIRECTION ( 'NONE',  ( 0.000000000000000000, 0.000000000000000000, 1.000000000000000000 ) ) ;
ENDSEC;
END-ISO-10303-21;
